Cours de guitare : Se délier les doigts

Dans : Débuter cours pour débutants



Un problème qui revient souvent auprès des nouveaux guitaristes est le manque de souplesse au niveau des doigts de la main gauche (pour les guitaristes droitiers)

Il existe un exercice excellent pour apprendre à se délier les doigts, et ainsi pouvoir jouer plus facilement les solos (par exemple ): les gammes chromatiques

Que se cache-t-il sous ce nom barbare?
Explications :

Tout d'abord, la tablature de cette exercice :


-----------------------------------------1-2-3-4---------
---------------------------------1-2-3-4-----------------
-------------------------1-2-3-4-------------------------
-----------------1-2-3-4---------------------------------
---------1-2-3-4-----------------------------------------
-1-2-3-4-------------------------------------------------


Il s'agit de jouer la tab ci-dessus, mais en suivant ces quelques règles :

- un doigt = une case : autrement dit, l'index pour appuyer sur la première case, le majeur pour la deuxième, l'annulaire pour la troisième et enfin l'auriculaire pour la quatrième.
Justement, il arrive souvent que l'on fasse pas assez travailler le petit doigt : pour certains ce n'est pas évident au début, mais indispensable donc à travailler !

- Jouer au métronome : il est important d'être régulier, puisqu'il s'agit de l'une des bases même de la musique (indispensable pour jouer en groupe, entre autres...)

- Mieux vaut jouer lentement et bien que vite et mal : préférez jouer lentement en accélérant progressivement, plutôt que de vouloir jouer vite dès le début, et ainsi prendre le risque d'avoir un jeu sale, donc par conséquent pas très agréable à entendre.



L'exercice peut être décalé sur le manche, et puisque les cases sont de plus en plus petites, il est intéressant de travailler cette technique à différents endroits.

Enfin, il est aussi important de varier l'exercie en y ajoutant des sauts de corde, en le jouant par exemple de cette façon:


----------------------------------1-3-2-4----------------
---------1-3-2-4-----------------------------------------
-----------------1-3-2-4---------------------------------
-------------------------------------------1-3-2-4-------
-1-3-2-4-------------------------------------------------
--------------------------1-3-2-4------------------------


à vous de trouver par vous même différentes manières de varier l'exercice.



Les progrès apparaissent très vite.
Jouer des gammes chromatiques 10 minutes par jours semble correct, il y a évidemment plus agréable à jouer, mais croyez-moi ça aide beaucoup.
Je ne vous cache pas qu'à mes débuts guitaristiques je ne jouais pas de gammes chromatiques car que je trouvais lourd, n'empêche que ça m'a énormément pénalisé quand j'ai voulus me mettre aux solos, alors un conseil : bossez vos chromatismes !

Ajouté par anduril, le 09 Aug 2008.