# A B C D E F G H I J K L M N O P Q R S T U V W X Y Z

La nuit des fées tab, Indochine

Partition / Tablature La nuit des fées de Indochine avec grille d'accords pour débutant. Extrait de l'album Paradize (2002). Tab ajoutée le 04 Nov 2008.

Tablature

Indochine
La nuit des fées
Fourni par YONGLIJ'ai mis 2 versions dans cette tab. La première est celle de l'album, et la seconde est la version live (en fait c'est celle de l'émission SLAP, diffusée sur France 2).
Ce soir une fée dans un pays hanté, ce soir...Intro - CoupletsRiff 1 (synthé)
2 :-9-9-9-9-9-7-7-7-----------------
3 :-----------------9-9-9-8-8-8-8-8-en boucleRiff 2 (synthé)
1 :------------7----------
2 :-9-10-9-7-----10-9---7-en boucle
3 :----------9--------9---CoupletsRiff 3 (guitare)
4 :-6-6-6-6-6-6-6-6/2-2-2-2-2-2-2-2/
5 :-6-6-6-6-6-6-6-6/2-2-2-2-2-2-2-2/
6 :-4-4-4-4-4-4-4-4/0-0-0-0-0-0-0-0/     A l'heure...PontRiff 4 (guitare)
1 :-----------------5-5-5-5-5-5-5-5-5-5-5-5-5-5-5-5-
2 :-----------------5-5-5-5-5-5-5-5-5-5-5-5-5-5-5-5-
3 :-----------------6-6-6-6-6-6-6-6-6-6-6-6-6-6-6-6-
4 :-6-6-6-6-6-6-6-6-7-7-7-7-7-7-7-7-7-7-7-7-7-7-7-7-
5 :-6-6-6-6-6-6-6-6-7-7-7-7-7-7-7-7-7-7-7-7-7-7-7-7-
6 :-4-4-4-4-4-4-4-4-5-5-5-5-5-5-5-5-5-5-5-5-5-5-5-5-Ce soir...RefrainRiff 5 (guitare avec disto)
4 :-6-6-6-6-6-6-6-6-6-6-6-6-6-2-2-2/9-9-9-9-9-9-9-9-7-7-7-7-7-7-7-7-
5 :-6-6-6-6-6-6-6-6-6-6-6-6-6-2-2-2/9-9-9-9-9-9-9-9-7-7-7-7-7-7-7-7-
6 :-4-4-4-4-4-4-4-4-4-4-4-4-4-0-0-0/7-7-7-7-7-7-7-7-5-5-5-5-5-5-5-5-Riff 6 (guitare lead avec disto)
2 :---------4-5-----------4-5-4-4---4-----------5---
3 :-4---4-4-----4---4-4-4---------6-----6-6-6-6---6-SoloRiff 74 :-2-2/5-5-7-7-7-2-2/5-5-7-7-7-2-2/5-2-2-2-2-2-2-3-3-3-3-3-3-x2OutroRiff 84 :-6-6-6-6-6-6-6-6-6-6-6-6-6-2-2-2/9-9-9-9-9-9-9-9-7-7-7-7-7-7-7-7-6~
5 :-6-6-6-6-6-6-6-6-6-6-6-6-6-2-2-2/9-9-9-9-9-9-9-9-7-7-7-7-7-7-7-7-6~
6 :-4-4-4-4-4-4-4-4-4-4-4-4-4-0-0-0/7-7-7-7-7-7-7-7-5-5-5-5-5-5-5-5-4~                 ____________________________________
 
 Version liveJe n'ai remis que les riffs qui changent.Riff 1
2 :-9-9-9-9-9-7-7-7-----------------
3 :-----------------9-9-9-9-9-8-8-8-Riff 4
1 :-----------------5---------------5--------
2

(...)
--Fin de l'extrait.
Vous devez être connecté pour afficher la suite. [ Inscription rapide ]

Plus de La nuit des fées tabs @911tabs.com

Rappel : Cette représentation est l'interprétation personnelle, approximative et partielle d'une chanson protégée par droits d'auteurs. L'utilisation de cette représentation est strictement réservée à un usage personnel et pédagogique. FranceTabs a pour but de promouvoir la culture française à travers la musique. Si un auteur ou une société acréditée désire s'opposer à la publication de ses représentations, celles-ci seront immédiatement retirées du site.
Envie d'apprendre à jouer de la guitare ?
Des cours de guitare gratuits de professionnels vous attendent tabs4acoustic.com! Au programme, plus de 10h de cours en vidéo, des tutos pour débutant et plein d'autres surprises.