# A B C D E F G H I J K L M N O P Q R S T U V W X Y Z

Marie tab, Hallyday, Johnny

Partition / Tablature Marie de Hallyday, Johnny avec grille d'accords pour débutant. Extrait de l'album A la vie, à la mort (2002). Tab ajoutée le 04 Nov 2008.

Tablature

MARIE de JHONNY HALLYDAY.
                Oh Ma-rie          si tu savais        ----------------0-----------------------------------
-------1-----------1--0---------0-----1--0----------
----2-----2------------------0-----0--------2---0---
----------------------------------------------------
-0-----------0--------------------------------------
--------------------------0-------------------------              tout le mal        que l'on me fait----------------0-----------------------------------
-------1-----------1--0--------0------1---0---------
----2-----2-----------------0-----0-----------2----0
----------------------------------------------------
-0-----------0--------------------------------------
--------------------------0-------------------------
                Oh Ma-rie          si je pouvais        ----------------0-----------------------------------
-------1-----------1--0---------0-----0-------1-----
----2-----2------------------0-----0------0------0--
----------------------------------------------------
-0-----------0--------------------------------------
--------------------------0-------------------------              dans tes     bras  nus   me  reposer
----------------------------------------------------
----------1-----1------------1-------0-----1--0-----
------0------------------0-----------0----------2--0
---2----------------2-------------------------------
3---------------------------------------------------
-----------------------------------------3----------
                e-va-nouie        mon innocence      ----------------0-----------------------------------
-------1-----------1--0---------0-----1--0----------
----2-----2------------------0-----0--------2---0---
----------------------------------------------------
-0-----------0--------------------------------------
--------------------------0-------------------------
               Tu étais pour moi  ma dernière

(...)
--Fin de l'extrait.
Vous devez être connecté pour afficher la suite. [ Inscription rapide ]

Plus de Marie tabs @911tabs.com

Rappel : Cette représentation est l'interprétation personnelle, approximative et partielle d'une chanson protégée par droits d'auteurs. L'utilisation de cette représentation est strictement réservée à un usage personnel et pédagogique. FranceTabs a pour but de promouvoir la culture française à travers la musique. Si un auteur ou une société acréditée désire s'opposer à la publication de ses représentations, celles-ci seront immédiatement retirées du site.
Envie d'apprendre à jouer de la guitare ?
Des cours de guitare gratuits de professionnels vous attendent tabs4acoustic.com! Au programme, plus de 10h de cours en vidéo, des tutos pour débutant et plein d'autres surprises.