La ligne holworth (picking) tab : Allwright, Graeme

Partition / Tablature La ligne holworth (picking) de Allwright, Graeme avec grille d'accords pour débutant.



pochette album le jour de clartéExtrait de l'album le jour de clarté (1968)



Ajoutée par Anonyme [ ? ], le 04 Nov 2008

Tablature
La Ligne Holworth                                 
                                                                Graeme Allwright
Piste 1                                                                                
E||--------0----------------|-------------------------|------------------------|
B||-----------------3-------|--1--------0-------------|----------------0-------|
G||*--2-------2-------------|-----2-----------2-------|--0-------2-------------|
D||*-------2-----------2----|--------2-----------2----|-------0-----------0----|
A||---0---------------------|--0----------------------|------------------------|
E||--------------0----------|--------------0----------|--3----------3----------|
                                                                             
-------------------------|-------------------------|-------0----------------|
-------1--------1--------|-------1--------1--------|----------------3-------|
----------2-----------2--|----------2-----------2--|----------2-------------|
-------2-----------2-----|-------2-----------2-----|-------2-----------2----|
--0----------------------|--0----------------------|--0---------------------|
-------------0-----------|-------------0-----------|-------------0----------|
                                                                              
-------------------------|-------------------------|--0----------------------|
--1--------0-------------|--3--------1-----3-------|-----1-----------1-------|
-----2-----------2-------|-----0-------------------|-----------2--------2----|
--------2-----------2----|--------0-----------0----|--------2----------------|
--0----------------------|-------------------------|--0----------------------|
--------------0----------|--3-----------3----------|--------------0----------|
                                                                             

(...)
--Fin de l'extrait.
Vous devez être connecté pour afficher la suite. [ Inscription rapide ]

Plus de La ligne holworth (picking) tabs @911tabs.com

Rappel : Cette représentation est l'interprétation personnelle, approximative et partielle d'une chanson protégée par droits d'auteurs. L'utilisation de cette représentation est strictement réservée à un usage personnel et pédagogique. FranceTabs a pour but de promouvoir la culture française à travers la musique. Si un auteur ou une société acréditée désire s'opposer à la publication de ses représentations, celles-ci seront immédiatement retirées du site.