Les Limites tab : Doré, Julien

Partition / Tablature Les Limites de Doré, Julien avec grille d'accords pour débutant.



pochette album ErsatzExtrait de l'album Ersatz (2008)



Ajoutée par Anonyme [ ? ], le 04 Nov 2008

Accords
Accord guitare D (xx0232) Accord guitare Dm (xx0231) Accord guitare G (320033) Accord guitare Bm (x24432) Accord guitare Bb (x13331) Accord guitare A (x02220)
Tablature
Julien Dore - Les Limites By KevinKleinVIDEO CONSEIL AIDE = GUITARé ===> http://Fasilaguitare.free.fr/forum/index.php
D  : 557775
G  : 355433
Bb : 688766
A  : 577655
Bm : 224432
Dm ! 557765Intro: 
  D               G       Bb  A
E------0-2^0--------------1-1-0----
B---3--------3----------3--------3-
G-4------------2--0-0-4------------
D----------------------------------
A----------------------------------
E----------------------------------Couplet:
  D                G                 D               G       Bb  A
E------0-2^0----------------1^0-----------0-2^0--------------1-1-0----
B---3--------3-----------3------3------3--------3----------3--------3-
G-2-------------2--0--4-----------4--2------------2--0-0-4------------
D---------------------------------------------------------------------
A---------------------------------------------------------------------
E---------------------------------------------------------------------Refrain:
  Bm                  

(...)
--Fin de l'extrait.
Vous devez être connecté pour afficher la suite. [ Inscription rapide ]

Plus de Les Limites tabs @911tabs.com

Rappel : Cette représentation est l'interprétation personnelle, approximative et partielle d'une chanson protégée par droits d'auteurs. L'utilisation de cette représentation est strictement réservée à un usage personnel et pédagogique. FranceTabs a pour but de promouvoir la culture française à travers la musique. Si un auteur ou une société acréditée désire s'opposer à la publication de ses représentations, celles-ci seront immédiatement retirées du site.