Satellite (3) tab : Indochine

Partition / Tablature Satellite (ver 3) de Indochine avec grille d'accords pour débutant.



pochette album WaxExtrait de l'album Wax (1996)



Ajoutée par Anonyme [ ? ], le 04 Nov 2008

Accords
Accord guitare C (x32010) Accord guitare Dm (xx0231) Accord guitare E (022100) Accord guitare F (133211) Accord guitare Am (x02210) Accord guitare Bbm (x13321)
Tablature
(Gtr. I : 6e corde (E) baisser d'1/2 ton) Intro
Gtr. I x2
E|-----------------| |--------------------------------------|
B|-----------------| |--------------------------------------|
G|-----------------| |--------------------------------------|
D|-------3---------| |--------------------------3-----------|
A|-5-3-5---5-3-5---| |--------------------5-3-5---5-3-5-----|
E|---------------2-| |----------------------------------2---|Gtr. II x2                                                  
E|---------------------------------------------------------|
B|---------------------------------------------------------|
G|-----------------------5-5-5-5-7-7-7-7-------------------|
D|---------------3-3-3-3-5-5-5-5-7-7-7-7-7-7-7-7-----------|
A|---------------3-3-3-3-3-3-3-3-5-5-5-5-7-7-7-7-----------|
E|---------------1-1-1-1-----------------5-5-5-5-----------|
__________Couplet
Gtr. I
      F       C       Dm     Am        F       C      Dm     BbmGtr.

(...)
--Fin de l'extrait.
Vous devez être connecté pour afficher la suite. [ Inscription rapide ]

Plus de Satellite (3) tabs @911tabs.com

Rappel : Cette représentation est l'interprétation personnelle, approximative et partielle d'une chanson protégée par droits d'auteurs. L'utilisation de cette représentation est strictement réservée à un usage personnel et pédagogique. FranceTabs a pour but de promouvoir la culture française à travers la musique. Si un auteur ou une société acréditée désire s'opposer à la publication de ses représentations, celles-ci seront immédiatement retirées du site.