# A B C D E F G H I J K L M N O P Q R S T U V W X Y Z

Pour le pire tab, Brigada Flores Magon

Partition / Tablature Pour le pire de Brigada Flores Magon avec grille d'accords pour débutant. Extrait de l'album Anges gardiens (2002). Tab ajoutée le 04 Nov 2008.

Tablature

Brigada Flores MagonPour le pirePar Yétipunk
IntroE---2-3-2-----------2---3---2-------
B---------3---2---3-----------------
G-4---------------------------------
D-----------------------------------
A-----------------------------------
E-----------------------------------
CoupletE---------------------------------
B---------------------------------
G-----------------4-4-4-4-7-7-7-7-
D-2-2-2-2-2-2-2-2-4-4-4-4-7-7-7-7-
A-2-2-2-2-2-2-2-2-2-2-2-2-5-5-5-5-
E-0-0-0-0-0-0-0-0-----------------
RefrainE---------------------------------
B---------------------------------
G---------4-4-4-4-----------------
D-2-2-2-2-4-4-4-4-2-2-2-2-4-4-4-4-
A-2-2-2-2-2-2-2-2-2-2-2-2-4-4-4-4-
E-0-0-0-0---------0-0-0-0-2-2-2-2-
POUR LE PIRé 
Sans se juger
On avance ensemble
Le poing sur le coeur 
On chante nos rancoeurs
Ne faisant qu'un
On suit notre destin
Récoltant la liberté
Au creux de l'amitiéPOUR LE PIRé 
COMME POUR LE MEILLEURTelle une tribu
Qui part en guerre
Dans les yeux de nos frères
Brille la lumière
Cette vie est choisie
Et n'a pas de prix
Cette vie est un choix
Et n'a pas de loi

--Fin de l'extrait.
Vous devez être connecté pour afficher la suite. [ Inscription rapide ]

Plus de Pour le pire tabs @911tabs.com

Rappel : Cette représentation est l'interprétation personnelle, approximative et partielle d'une chanson protégée par droits d'auteurs. L'utilisation de cette représentation est strictement réservée à un usage personnel et pédagogique. FranceTabs a pour but de promouvoir la culture française à travers la musique. Si un auteur ou une société acréditée désire s'opposer à la publication de ses représentations, celles-ci seront immédiatement retirées du site.
Envie d'apprendre à jouer de la guitare ?
Des cours de guitare gratuits de professionnels vous attendent tabs4acoustic.com! Au programme, plus de 10h de cours en vidéo, des tutos pour débutant et plein d'autres surprises.