Tablature Ami - Cabrel, Francis
# A B C D E F G H I J K L M N O P Q R S T U V W X Y Z

Ami tab, Cabrel, Francis

Partition / Tablature Ami de Cabrel, Francis avec grille d'accords pour débutant. Extrait de l'album Les murs de poussière (1977). Tab ajoutée le 04 Nov 2008.

Tablature

Ami
Paroles et musique : Francis Cabrel (1977) 
        
        Capo : 7        Signature Rythmique: 4/4
Intro 2x
 |       |       |       |        
|--------------------------------|
|3---------0-----3---------0-----|
|------0---------------0---------|
|----0-------0-------0-------0---|
|--------------------------------|
|3-------3-------3-------3-------|
Couplet 1
 |       |       |       |        |       |       |       |        
|--------------------------------|--------------------------------|
|3---------0-----3---------0-----|3---------1-----3---------3-----|
|------0---------------0---------|------0---------------0---------|
|----0-------0-------0-------0---|----2-------2-------4-------4---|
|--------------------------------|3-------3-------5-------5-------|
|3-------3-------3-------3-------|--------------------------------|
 AMi                              cherche un autre ami
 |       |       |       |        |       |       |       |        
|--------------------------------|--------------------------------|
|3---------0-----3-----0---3-----|3---------1-----3---------3-----|
|------0-------------0-------0---|------0---------------0---------|
|----0-------0-----------0-------|----2-------2-------4-------4---|
|--------------------------------|3-------3-------5-------5-------|
|3-------2-------0---------------|--------------------------------|
  perdu                           Dans l'immensité des
 |       |       |       |        |       |       |       |        
|--------------------------------|--------------------------------|
|3---------3-----3---------3-----|3---------1-----3---------3-----|
|------0---------------0---------|------0---------------2---------|
|----4-------4-------4-------4---|----2-------2-------4-------4---|
|--------------------------------|3-------3-------2-------2-------|
|0-------0-------0-------0-------|--------------------------------|
 nues                             Visage et corps        incon-
 |       |       |      

(...)
--Fin de l'extrait.
Vous devez être connecté pour afficher la suite. [ Inscription rapide ]
Rappel : Cette représentation est l'interprétation personnelle, approximative et partielle d'une chanson protégée par droits d'auteurs. L'utilisation de cette représentation est strictement réservée à un usage personnel et pédagogique. FranceTabs a pour but de promouvoir la culture française à travers la musique. Si un auteur ou une société acréditée désire s'opposer à la publication de ses représentations, celles-ci seront immédiatement retirées du site.
Envie d'apprendre à jouer de la guitare ?
Des cours de guitare gratuits de professionnels vous attendent tabs4acoustic.com! Au programme, plus de 10h de cours en vidéo, des tutos pour débutant et plein d'autres surprises.