Tablature Le sud (ver 2) - Ferrer, Nino
# A B C D E F G H I J K L M N O P Q R S T U V W X Y Z

Le sud (2) tab, Ferrer, Nino

Partition / Tablature Le sud (ver 2) de Ferrer, Nino avec grille d'accords pour débutant. Extrait de l'album Nino Ferrer et Radiah (1974). Tab ajoutée le 04 Nov 2008.

Accords

Accord guitare C (x32010) Accord guitare Em (022000) Accord guitare F (133211) Accord guitare Am (x02210) Accord guitare C/G (332010) Accord guitare C/B (x20010)

Tablature

" Le Sud " - Nino FERRERVoici la Mélodie pour la 2ème guitare à  jouer en méme temps que les Interludes:E--3---1-0---0-------------------------------------|
B----------3------3-1-0------0-1-------------------|
G-----------------------2--------0--------------0--|
D------------------------------------------0h2-----|
A--------------------------------------0h3---------|
E------------------------------------3-------------|
Rythmique:
A= 1 Aller sur toutes les cordes
r= 1 Retour sur les cordes aiguësL'arpège de l'Intro est le méme que celui de l'Interlude.Intro et Interlude ( à  jouer 2 fois ):
     C        C/B        Am         C/G
------0----|----0-----|------0---|----0------|
------1----|----1-----|------1---|----1------|   
---0-----0-|------0---|---2----2-|------0----|
-----------|----------|----------|-----------|
-3---------|-2------2-|-0--------|-----------|
-----------|----------|----------|-3-------3-|                  F          

(...)
--Fin de l'extrait.
Vous devez être connecté pour afficher la suite. [ Inscription rapide ]
Rappel : Cette représentation est l'interprétation personnelle, approximative et partielle d'une chanson protégée par droits d'auteurs. L'utilisation de cette représentation est strictement réservée à un usage personnel et pédagogique. FranceTabs a pour but de promouvoir la culture française à travers la musique. Si un auteur ou une société acréditée désire s'opposer à la publication de ses représentations, celles-ci seront immédiatement retirées du site.
Envie d'apprendre à jouer de la guitare ?
Des cours de guitare gratuits de professionnels vous attendent tabs4acoustic.com! Au programme, plus de 10h de cours en vidéo, des tutos pour débutant et plein d'autres surprises.