Tablature Le sud (ver 3) - Ferrer, Nino
# A B C D E F G H I J K L M N O P Q R S T U V W X Y Z

Le sud (3) tab, Ferrer, Nino

Partition / Tablature Le sud (ver 3) de Ferrer, Nino avec grille d'accords pour débutant. Extrait de l'album Nino Ferrer et Radiah (1974). Tab ajoutée le 04 Nov 2008.

Accords

Accord guitare C (x32010) Accord guitare D (xx0232) Accord guitare D7 (xx0212) Accord guitare Em (022000) Accord guitare F (133211) Accord guitare G (320033) Accord guitare Am (x02210) Accord guitare Adim (5x454x)

Tablature

Le Sud - Nino Ferrer
Capo 3
Arpège :
  - Couplets :
e-----0--------0--------0--------0--------0---
B-----1--------0--------1--------1--------1---
G---0---0----0---0----2---2----2---2----2---2-
D---------------------------------------------
A-3--------2--------0-------------------------
E----------------------------3--------2-------e------0-----------0--------------------------
B------1---------1----------------------------
G--0h2---2-----0----------------------0-------
D-------------------------------0--2----------
A------------3---------------3-----------2----
E-1--------------------3--6-------------------Puis reprendre plusieurs fois pour faire le couplet en entier.  - Refrain

(...)
--Fin de l'extrait.
Vous devez être connecté pour afficher la suite. [ Inscription rapide ]
Rappel : Cette représentation est l'interprétation personnelle, approximative et partielle d'une chanson protégée par droits d'auteurs. L'utilisation de cette représentation est strictement réservée à un usage personnel et pédagogique. FranceTabs a pour but de promouvoir la culture française à travers la musique. Si un auteur ou une société acréditée désire s'opposer à la publication de ses représentations, celles-ci seront immédiatement retirées du site.
Envie d'apprendre à jouer de la guitare ?
Des cours de guitare gratuits de professionnels vous attendent tabs4acoustic.com! Au programme, plus de 10h de cours en vidéo, des tutos pour débutant et plein d'autres surprises.