Tablature Le sud - Ferrer, Nino
# A B C D E F G H I J K L M N O P Q R S T U V W X Y Z

Le sud tab, Ferrer, Nino

Partition / Tablature Le sud de Ferrer, Nino avec grille d'accords pour débutant. Extrait de l'album Nino Ferrer et Radiah (1974). Tab ajoutée le 04 Nov 2008.

Tablature

le sud  (nino ferrer)     doigté main gauche:
 0 = corde à  vide / 1 = index / 2 = majeur 
 3 = annulaire /  4 = auriculaire
     doigté main droite:     
 p = pouce / i = index / m = majeur / a = annulaire
 ~ = hammer-on
 L = croche
 | = noire
 V = coup vers le bas  (en descendant)
 ^ = coup vers le haut (en remontant) intro:
 Do     Mim/Si   Lam    Lam/Sol Ré7/Fa#  Fam     Do
 3   1   2     2   3 1 3 4 1 3 4 2 3 1 3 1 2 3 2 3   1   2 4 2   1
|----0-----0----|----0-----0----|---------------|----0--------------|
|----1-----0----|----1-----1----|----1-------1--|----1--------------|
|--0---0-----0--|--2---2-----2--|--2---2---1---1|--0---0-----------0|
|---------------|---------------|---------------|--------------0~2--|
|3-------2-----2|0--------------|---------------|3-----------3------|
|---------------|--------3-----3|2-------1------|--------3~5--------|
 p i a i p a i p p i a i p a i p p i m i p i m i p i a i p   p p   i
     m     m         m     m                         mcouplet:                          
                                  
   Do     Mim/Si   Lam    Lam/Sol 
   3   1   2     2   3 1 3 4 1 3 4
|| ----0-----0----|----0-----0----|
|| ----1-----0----|----1-----1----|
||.--0---0-----0--|--2---2-----2--|
||.---------------|---------------|
|| 3-------2-----2|0--------------|
|| ---------------|--------3-----3|
   p i a i p a i p p i a i p a i p
       m     m         m     m    |                    
   - c'est un ...                 |
   - il y a du...           ______|
                           |_______ 1ière fois_________________
                           |
                           |Ré7/Fa# Fam     Do
                           |2 3 1 3 1 2 3 2 3   1   2 4 2   1
                           |---------------|----0--------------|
                           |----1-------1--|----1--------------|
                           |--2---2---1---1|--0---0-----------0|
                           |---------------|--------------0~2--|
              

(...)
--Fin de l'extrait.
Vous devez être connecté pour afficher la suite. [ Inscription rapide ]
Rappel : Cette représentation est l'interprétation personnelle, approximative et partielle d'une chanson protégée par droits d'auteurs. L'utilisation de cette représentation est strictement réservée à un usage personnel et pédagogique. FranceTabs a pour but de promouvoir la culture française à travers la musique. Si un auteur ou une société acréditée désire s'opposer à la publication de ses représentations, celles-ci seront immédiatement retirées du site.
Envie d'apprendre à jouer de la guitare ?
Des cours de guitare gratuits de professionnels vous attendent tabs4acoustic.com! Au programme, plus de 10h de cours en vidéo, des tutos pour débutant et plein d'autres surprises.