Tablature Je suis venu te dire que je m'en vais - Gainsbourg, Serge
# A B C D E F G H I J K L M N O P Q R S T U V W X Y Z

Je suis venu te dire que je m'en vais tab, Gainsbourg, Serge

Partition / Tablature Je suis venu te dire que je m'en vais de Gainsbourg, Serge avec grille d'accords pour débutant. Extrait de l'album Vu de l'extérieur (1973). Tab ajoutée le 04 Nov 2008.

Accords

Accord guitare C# (x46664) Accord guitare D (xx0232) Accord guitare Dadd9 (x54230) Accord guitare F# (244322) Accord guitare F#m7 (242222) Accord guitare G6 (320000) Accord guitare Asus2 (x02200) Accord guitare Asus4 (x0223x) Accord guitare A/E (002220) Accord guitare A (x02220)

Tablature

Je suis venu te dire que je m'en vais ( Serge Gainsbourg ) 
Notes : Capo on the 7th fret. The chord names refer to the guitar line patterns, the actual
bass note is added if different from the chord fundamental note. 4/4 Dadd9 Asus2
e-|-----------------0-h1--0--|--------0-----------0-----|
B-|--------------3-----------|--3--------3-----------0--|
G-|-----------2--------------|-----2-----------2--------|
D-|--------0-----------------|--------------------------|
A-|--------------------------|--------------------------|
E-|--------------------------|--------------------------| Je suis venu te dire que je m'en F#m7sus4
e-|-----------------------0--|-----------0-----------0--|
B-|-----------0--------------|--------------------------|
G-|-----2-----------2--------|-----2-----------2--------|
D-|--4-----4-----4-----4-----|--4-----4-----4-----4-----|
A-|--------------------------|--------------------------|
E-|--------------------------|--------------------------| vais

(...)
--Fin de l'extrait.
Vous devez être connecté pour afficher la suite. [ Inscription rapide ]
Rappel : Cette représentation est l'interprétation personnelle, approximative et partielle d'une chanson protégée par droits d'auteurs. L'utilisation de cette représentation est strictement réservée à un usage personnel et pédagogique. FranceTabs a pour but de promouvoir la culture française à travers la musique. Si un auteur ou une société acréditée désire s'opposer à la publication de ses représentations, celles-ci seront immédiatement retirées du site.
Envie d'apprendre à jouer de la guitare ?
Des cours de guitare gratuits de professionnels vous attendent tabs4acoustic.com! Au programme, plus de 10h de cours en vidéo, des tutos pour débutant et plein d'autres surprises.