Tablature Laetitia - Gainsbourg, Serge
# A B C D E F G H I J K L M N O P Q R S T U V W X Y Z

Laetitia tab, Gainsbourg, Serge

Partition / Tablature Laetitia de Gainsbourg, Serge avec grille d'accords pour débutant. Extrait de l'album Gainsbourg confidentiel (1963). Tab ajoutée le 04 Nov 2008.

Accords

Accord guitare Cm7 (x35343) Accord guitare Fm7 (131111) Accord guitare B (x24442) Accord guitare Bb7 (x13131) Accord guitare A (x02220)

Tablature

Laetitia - Serge GainsbourgRiffs A :
------------------------------------------------------
------------------------------------------------------
------------------------------------------------------
--3--3--5-6-3--------------3-5----------5-----5-------
-------------6-5-6-(5)-6-------6-5-3-------------6----
--------------------------------------3-----3---------Riffs B :
------------------------------------------------------
------------------------------------------------------
------------------------------------------------------
--3--3--5-6-3--------------3-5----------5-----5-------
-------------6-5-6-(5)-(6)-----6-5-3-------------3----
-------------------------------------3-----3----------La seule différence entre les deux riffs est la derniére note. Le premier arrive sur un Mi bémol et le deuxiéme sur un Do.Accords utilisés : Eb7M    Fm7    Dm75b    Cm7   

(...)
--Fin de l'extrait.
Vous devez être connecté pour afficher la suite. [ Inscription rapide ]
Rappel : Cette représentation est l'interprétation personnelle, approximative et partielle d'une chanson protégée par droits d'auteurs. L'utilisation de cette représentation est strictement réservée à un usage personnel et pédagogique. FranceTabs a pour but de promouvoir la culture française à travers la musique. Si un auteur ou une société acréditée désire s'opposer à la publication de ses représentations, celles-ci seront immédiatement retirées du site.
Envie d'apprendre à jouer de la guitare ?
Des cours de guitare gratuits de professionnels vous attendent tabs4acoustic.com! Au programme, plus de 10h de cours en vidéo, des tutos pour débutant et plein d'autres surprises.