Tablature Tandem - Gainsbourg, Serge
# A B C D E F G H I J K L M N O P Q R S T U V W X Y Z

Tandem tab, Gainsbourg, Serge

Partition / Tablature Tandem de Gainsbourg, Serge avec grille d'accords pour débutant. Tab ajoutée le 04 Nov 2008.

Accords

Accord guitare C (x32010) Accord guitare D (xx0232) Accord guitare G (320033) Accord guitare A (x02220)

Tablature

Tandem (Gainsbourg pour V. Paradis)
 Intro X2 :
        I               II              
e--------------------|------------|     
B------------------3-|------------|     
G----------2-----x---|------------|     
D--------2---3h4-----|------5-----|     
A--0-3h4-------------|-sl/7----0~-|     
E--------------------|------------|     
Thème x n (tout du long..., avec variantes)
            A       G    D
e---------------|-------------------|
B---------------|-------------------|
G-----------2---|-------------------|
D---------2~~---|---5----5---(2)----|
A--0-3h4--------|---5----4----0-----|
E---------------|-------------------|
                                    |
deuxième guitare                    |                               |
e-----------5~~-|---7~~-(5)---------|
B---------5~~---|---8~~--7~~--------|
G----5h6--------|---7~~--7~~--------|
D--7------------|-------(7)---------|
A---------------|-------------------|
E---------------|-------------------|
 voilà  une

(...)
--Fin de l'extrait.
Vous devez être connecté pour afficher la suite. [ Inscription rapide ]
Rappel : Cette représentation est l'interprétation personnelle, approximative et partielle d'une chanson protégée par droits d'auteurs. L'utilisation de cette représentation est strictement réservée à un usage personnel et pédagogique. FranceTabs a pour but de promouvoir la culture française à travers la musique. Si un auteur ou une société acréditée désire s'opposer à la publication de ses représentations, celles-ci seront immédiatement retirées du site.
Envie d'apprendre à jouer de la guitare ?
Des cours de guitare gratuits de professionnels vous attendent tabs4acoustic.com! Au programme, plus de 10h de cours en vidéo, des tutos pour débutant et plein d'autres surprises.