Tablature Elle attend - Goldman, Jean-Jacques
# A B C D E F G H I J K L M N O P Q R S T U V W X Y Z

Elle attend tab, Goldman, Jean-Jacques

Partition / Tablature Elle attend de Goldman, Jean-Jacques avec grille d'accords pour débutant. Extrait de l'album Non homologué (1985). Tab ajoutée le 04 Nov 2008.

Accords

Accord guitare C (x32010) Accord guitare C9 (x32331) Accord guitare D (xx0232) Accord guitare Em (022000) Accord guitare G (320033) Accord guitare Am (x02210) Accord guitare Bm (x24432) Accord guitare D/F# (200232)

Tablature

Elle attend (Jean-Jacques Goldman)
Pour etre dans le ton du disque, il faut
utiliser un Capodastre a la 2eme Case.
Tous les accords dependent de ce capo,
cad qu'un Em avec Capo correspond a un
F#m sans Capo.
Intro :   C     D     Em               C     D     Em
|------0-----0-----0-2-3-2-0--------0-----0-----0-2-0---0-------------------|
|----1-----------0-----------3----1-----------0-------0---0-----------------|
|--0-------2--------------------0-------2-----------------------------------|
|--------0-----2----------------------0-----2-------------------------------|
|---------------------------------------------------------------------------|
|---------------------------------------------------------------------------|
Couplet :         C            D             Em
|------------0------------0-------------0-2-0---0----|
|----------1---1------------3---------0-------0------|
|--------0--------------2-------------------------2--| (2

(...)
--Fin de l'extrait.
Vous devez être connecté pour afficher la suite. [ Inscription rapide ]
Rappel : Cette représentation est l'interprétation personnelle, approximative et partielle d'une chanson protégée par droits d'auteurs. L'utilisation de cette représentation est strictement réservée à un usage personnel et pédagogique. FranceTabs a pour but de promouvoir la culture française à travers la musique. Si un auteur ou une société acréditée désire s'opposer à la publication de ses représentations, celles-ci seront immédiatement retirées du site.
Envie d'apprendre à jouer de la guitare ?
Des cours de guitare gratuits de professionnels vous attendent tabs4acoustic.com! Au programme, plus de 10h de cours en vidéo, des tutos pour débutant et plein d'autres surprises.