Tablature Quelque Chose De Bizzare - Goldman, Jean-Jacques
# A B C D E F G H I J K L M N O P Q R S T U V W X Y Z

Quelque Chose De Bizzare tab, Goldman, Jean-Jacques

Partition / Tablature Quelque Chose De Bizzare de Goldman, Jean-Jacques avec grille d'accords pour débutant. Extrait de l'album Démodé (1982). Tab ajoutée le 04 Nov 2008.

Tablature

Quelque chose de bizarreCouplet 1 :
|--------0-------------------2------------------|
|--------1-------------------3------------------|
|--------0-------------------2------------------|
|--------2-------------------0------------------|
|--------3--------------------------------------|
|-----------------------------------------------|
C'était mois de novembre, le samedi 17, au soir.
                                                               
|----------0---------------------------------------------------0-----|
|------3s5---4s5---3-0-----------------------------------------1-----|
|----------------------3-2-0---2-0-----------------------------0-----|
|----------------------------2-----2-0-0^2^0^2^0^2-------------2-----|
|--------------------------------------------------------------3-----|
|--0-----------------------------------------------------------------|
Dans ces coins de légende où|-----2--------------------------------3-3-3--------------------------1--|
|-----3----------------------------2^3-3-3-3------------1-------------0--|
|-----2------------------------0------------------------0-------------2--|
|-----0------------------------0------------------------2-------------1--|
|------------------------------2----------------------3-------------2----|
|------------------------------3-----------------------------------------|
Les trains ne mènent nulle part.              La chaleur était pesante,|-------------0----------------------------0~~----------------------2----|
|-------------0--------------------------0~~-----------1------------3----|
|-------------0------------------------0~~-------------0------------2----|
|-------------2----------------------2~~---------------2------------0----|
|----------------------------------4~~-----------------3-----------------|
|------------------------------------------------------------------------|
Et le vent chaud incitait à  boire.      Je suis descendu fourbu, tout

(...)
--Fin de l'extrait.
Vous devez être connecté pour afficher la suite. [ Inscription rapide ]
Rappel : Cette représentation est l'interprétation personnelle, approximative et partielle d'une chanson protégée par droits d'auteurs. L'utilisation de cette représentation est strictement réservée à un usage personnel et pédagogique. FranceTabs a pour but de promouvoir la culture française à travers la musique. Si un auteur ou une société acréditée désire s'opposer à la publication de ses représentations, celles-ci seront immédiatement retirées du site.
Envie d'apprendre à jouer de la guitare ?
Des cours de guitare gratuits de professionnels vous attendent tabs4acoustic.com! Au programme, plus de 10h de cours en vidéo, des tutos pour débutant et plein d'autres surprises.