Tablature Allumer le feu (ver 2) - Hallyday, Johnny
# A B C D E F G H I J K L M N O P Q R S T U V W X Y Z

Allumer le feu (2) tab, Hallyday, Johnny

Partition / Tablature Allumer le feu (ver 2) de Hallyday, Johnny avec grille d'accords pour débutant. Extrait de l'album Ce que je sais (1998). Tab ajoutée le 04 Nov 2008.

Tablature

JOHNNY HALLYDAY "ALLUMER LE FEU " ALBUM CE QUE JE SAIS
                          index  |----9-/12-/~~~~~~~~~~~~~~~~~~~~~~----------------------|
  |----9-/12-/~~~~~~~~~~~~~~~~~~~~~~----------------------|
  |----9/12--/~~~~~~~~~~~~~~~~~~~~~~----------------------|
  |----9/12--/~~~~~~~~~~~~~~~~~~~~~~----------------------|
  |----9/12--/~~~~~~~~~~~~~~~~~~~~~~~~~~------------------|
  |----9/12--/~~~~~~~~~~~~~~~~~~~~~~~~~~------------------|
  
                     Riff guitare N°1 
         
  |-------------------------------------------------------|
  |----/15---12~~~~---------------------------------------|
  |-----------------14---16~~~~/--------------------------|
  |---------------------------------7----9----------------|
  |---------------------------------5----7----------------|
  |-------------------------------------------------------|
                                        
  |-------------------------------------------------------|
  |----/15---12~~~~---------------------------------------|
  |-----------------14---16~~~~/--------------------------|
  |----------------------------------9--------------------|
  |----------------------------------7---7----------------|
  |--------------------------------------5----------------|
  
  |-------------------------------------------------------|
  |----/15---12~~~~---------------------------------------|
  |-----------------14---16~~~~/--------------------------|
  |-------------------------------------------------------|
  |--------------------------------7--4-------------------|
  |--------------------------------5--2-------------------|
        AVANT LE RéFRAIN       JOUER PLUSIEUR FOIS
  |----------------------------|
  |----------------------------|
  |----------------------------|
  |----------------7/9--9-9----|
  |----7/9--9-9----5/7--7-7----|
  |----5/7--7-7----------------|
  
                      Riff GUITARé N°2
         (x8)        (x8)       (x8)     (x8)     (x8)
 

(...)
--Fin de l'extrait.
Vous devez être connecté pour afficher la suite. [ Inscription rapide ]
Rappel : Cette représentation est l'interprétation personnelle, approximative et partielle d'une chanson protégée par droits d'auteurs. L'utilisation de cette représentation est strictement réservée à un usage personnel et pédagogique. FranceTabs a pour but de promouvoir la culture française à travers la musique. Si un auteur ou une société acréditée désire s'opposer à la publication de ses représentations, celles-ci seront immédiatement retirées du site.
Envie d'apprendre à jouer de la guitare ?
Des cours de guitare gratuits de professionnels vous attendent tabs4acoustic.com! Au programme, plus de 10h de cours en vidéo, des tutos pour débutant et plein d'autres surprises.