Tablature Pardon - Hallyday, Johnny
# A B C D E F G H I J K L M N O P Q R S T U V W X Y Z

Pardon tab, Hallyday, Johnny

Partition / Tablature Pardon de Hallyday, Johnny avec grille d'accords pour débutant. Extrait de l'album Sang pour sang (1999). Tab ajoutée le 04 Nov 2008.

Accords

Accord guitare C (x32010) Accord guitare Dm (xx0231) Accord guitare E5 (022xxx) Accord guitare F (133211) Accord guitare F# (244322) Accord guitare G (320033) Accord guitare Am (x02210) Accord guitare B (x24442) Accord guitare A (x02220)

Tablature

Johnny Hallyday - Pardon
cockupthenet-at-yahoo.frIntro
e ----------3-----------------3-----------------2-----------------2h3-2------
B -------5-----5-----------5-----5-----------5-----5-----------5---------5---
G ----4-----------4-----4-----------4-----4-----------4-----4--------------4-
D ---------------------------------------------------------------------------
A ---------------------------------------------------------------------------
E -0-----------------0-----------------0-----------------0-------------------
e ----------2-----------------2-----------------2-----------------2----------
B -------4-----4-----------4-----4-----------4-----4-----------4-----4-------
G ----2-----------2-----2-----------2-----4-----------4-----4-----------4----
D ---------------------------------------------------------------------------
A -------------------------------------2-----------------2-------------------
E

(...)
--Fin de l'extrait.
Vous devez être connecté pour afficher la suite. [ Inscription rapide ]
Rappel : Cette représentation est l'interprétation personnelle, approximative et partielle d'une chanson protégée par droits d'auteurs. L'utilisation de cette représentation est strictement réservée à un usage personnel et pédagogique. FranceTabs a pour but de promouvoir la culture française à travers la musique. Si un auteur ou une société acréditée désire s'opposer à la publication de ses représentations, celles-ci seront immédiatement retirées du site.
Envie d'apprendre à jouer de la guitare ?
Des cours de guitare gratuits de professionnels vous attendent tabs4acoustic.com! Au programme, plus de 10h de cours en vidéo, des tutos pour débutant et plein d'autres surprises.