Tablature Requiem pour un fou - Hallyday, Johnny
# A B C D E F G H I J K L M N O P Q R S T U V W X Y Z

Requiem pour un fou tab, Hallyday, Johnny

Partition / Tablature Requiem pour un fou de Hallyday, Johnny avec grille d'accords pour débutant. Extrait de l'album Derrière l'amour (1976). Tab ajoutée le 04 Nov 2008.

Tablature

REQUIEM POUR UN FOUdoigté main gauche:
0 = corde à  vide / 1 = index / 2 = majeur / 3 = annulaire / 4 = auriculaire
doigté main droite:     
p = pouce / i = index / m = majeur / a = annulaire
médiator:
v=vers le bas / ^=vers le haut                   Lam
                 0 2 1 0 1 2 0 2 1 0 1 2
                |------0-----------0----
                |----1---1-------1---1--
                |--2-------2---2-------2
                |-----------------------
                |0-----------0----------
                |-----------------------
                 v v v v ^ ^ v v v v ^ ^
                 p i m a m i p i m a m i
            Lam
                Je vous préviens n'approcher pas                 4 1 0 0 0 1 4 1 0 0 0 1
                |------0-----------0----
                |----0---0-------0---0--
                |--1-------1---1-------1
                |-----------------------
                |-----------------------
                |4-----------4----------
                 v v v v ^ ^ v v v v ^ ^
                 p i m a m i p i m a m i
            Mi7/Sol#
                Que vous soyez flic ou badaud                 3 0 0 4 0 0 3 0 0 4 0 0
                |------3-----------3----
                |----0---0-------0---0--
                |--0-------0---0-------0
                |-----------------------
                |-----------------------
                |3-----------3----------
                 v v v v ^ ^ v v v v ^ ^
                 p i m a m i p i m a m i
             Sol
                Je tue celui qui fait un pas                 1 1 2 1 2 1 1 1 2 1 2 1
                |x-----2-----x-----2----
                |x---3---3---x---3---3--
                |x-2-------2-x-2-------2
                |x-----------x----------
                |x-----------x----------
                |2-----------2----------
                 v v v v ^ ^ v v v v ^ ^
                 p i m a m i p i m a m i
             Re/Fa#
                 je ne ferai pas de

(...)
--Fin de l'extrait.
Vous devez être connecté pour afficher la suite. [ Inscription rapide ]
Rappel : Cette représentation est l'interprétation personnelle, approximative et partielle d'une chanson protégée par droits d'auteurs. L'utilisation de cette représentation est strictement réservée à un usage personnel et pédagogique. FranceTabs a pour but de promouvoir la culture française à travers la musique. Si un auteur ou une société acréditée désire s'opposer à la publication de ses représentations, celles-ci seront immédiatement retirées du site.
Envie d'apprendre à jouer de la guitare ?
Des cours de guitare gratuits de professionnels vous attendent tabs4acoustic.com! Au programme, plus de 10h de cours en vidéo, des tutos pour débutant et plein d'autres surprises.