Tablature Toute la musique que j'aime (ver 3) - Hallyday, Johnny
# A B C D E F G H I J K L M N O P Q R S T U V W X Y Z

Toute la musique que j'aime (3) tab, Hallyday, Johnny

Partition / Tablature Toute la musique que j'aime (ver 3) de Hallyday, Johnny avec grille d'accords pour débutant. Extrait de l'album Insolitudes (1973). Tab ajoutée le 04 Nov 2008.

Tablature

Johnny Hallyday
Toute la musique que j'aime [Tab]voila c'est ma première tab voila j'espère que sa vous aidera et que c'est compréhensible comme j'ai fais sa, sur ce
bonne lecture :) 
[Intro] X2   
E|---------------------|------------------|-----------------
B|---------------------|------------------|-----------------
G|---------------------|------------------|----------------- 
D|-----b5-2-2-----2----|-----b5-2-2-----2-|----b5-2-2-----2-  
A|---------------------|------------------|-----------------
E|-0-0--------b3-------|-0-0--------b3----|-0-0--------b3---  Toute la musique que j'aime                           elle vient de là  elle vient du blues
E|---------------------------|------------|------------|------------|-----------------------|
G|---------------------------|------------|------------|------------|-----------------------|
D|-----b5-2-2-----2----------|---------b2-|---------b2-|---------b2-|----------b2-----------|  
A|---------------------------|-0-0-b3-----|-0-0-b3-----|-0-0-b3-----|-0-0-b3----------------|
E|-0-0--------b3-------------|------------|------------|------------|-----------------------|                              les mots ne sont jamais les mémes                        pour exprimer ce qu'est le blues
E|---------------------------|------------------------------|------------|------------|------------|----------------|
G|---------------------------|------------------------------|------------|------------|------------|----------------|
D|-----b5-2-2-----2----------|-----b5-2-2-----2-------------|--------b2--|--------b2--|--------b2--|--------b2------| 
A|---------------------------|------------------------------|-0-0-b3-----|-0-0-b3-----|-0-0-b3-----|-0-0-b3---------|
E|-0-0--------b3-------------|-0-0--------b3----------------|------------|------------|------------|----------------|ETC... pour cette ligne ci dessou c'est a vous de gérer dans la musique originale elle et jouer 2fois comme dans la tab que

(...)
--Fin de l'extrait.
Vous devez être connecté pour afficher la suite. [ Inscription rapide ]
Rappel : Cette représentation est l'interprétation personnelle, approximative et partielle d'une chanson protégée par droits d'auteurs. L'utilisation de cette représentation est strictement réservée à un usage personnel et pédagogique. FranceTabs a pour but de promouvoir la culture française à travers la musique. Si un auteur ou une société acréditée désire s'opposer à la publication de ses représentations, celles-ci seront immédiatement retirées du site.
Envie d'apprendre à jouer de la guitare ?
Des cours de guitare gratuits de professionnels vous attendent tabs4acoustic.com! Au programme, plus de 10h de cours en vidéo, des tutos pour débutant et plein d'autres surprises.