# A B C D E F G H I J K L M N O P Q R S T U V W X Y Z

riffifi tab, Higelin, Jacques

Partition / Tablature riffifi de Higelin, Jacques avec grille d'accords pour débutant. Tab ajoutée par rblanche, le 02 Jul 2020.

Tablature

[Banjo Part]

1 2 3 4 1 2 3 4 1 2 3 4 1 2 3 4
Fmaj7/A Cmaj7/E
e||-------3-------|---------------|---------------|---------------|
b||---0-------0---|---------------|---------------|---------------|
G||-----5-------5-2---------------|-5-4-2-----2---4---------------|
D||---------------|---------------|-------3-------|---------------|
A||---------------|---------------|---------------|---------------|
E||---------------|---------------|---------------|---------------|

1 2 3 4 1 2 3 4 1 2 3 4 1 2 3 4
Fmaj7/A Cmaj7/E
e||---------------|---------------|---------------|---------------|
b||-----5---------|---------------|---------------5---------------|
G||-------5-4-2---2---------------|-----2-2-4-5---|---4-----------|
D||-------------3-|---------------|---------------|---------------|
A||---------------|---------------|---------------|---------------|
E||---------------|---------------|---------------|---------------|

1 2 3 4 1 2 3 4 1 2 3 4 1 2 3 4
Fmaj7/A Cmaj7/E
e||-------3-------|---------------|---------------|---------------|
b||---0-------0---|---------------|---------------|---------------|
G||-----5-------5-2---------------|-5-4-2-----2---4---------------|
D||---------------|---------------|-------3-------|---------------|
A||---------------|---------------|---------------|---------------|
E||---------------|---------------|---------------|---------------|

1 2 3 4 1 2 3 4 1 2 3 4 1 2 3 4
Fmaj7/A Cmaj7/E
(...)
--Fin de l'extrait.
Vous devez être connecté pour afficher la suite. [ Inscription rapide ]
Rappel : Cette représentation est l'interprétation personnelle, approximative et partielle d'une chanson protégée par droits d'auteurs. L'utilisation de cette représentation est strictement réservée à un usage personnel et pédagogique. FranceTabs a pour but de promouvoir la culture française à travers la musique. Si un auteur ou une société acréditée désire s'opposer à la publication de ses représentations, celles-ci seront immédiatement retirées du site.
Envie d'apprendre à jouer de la guitare ?
Des cours de guitare gratuits de professionnels vous attendent tabs4acoustic.com! Au programme, plus de 10h de cours en vidéo, des tutos pour débutant et plein d'autres surprises.