# A B C D E F G H I J K L M N O P Q R S T U V W X Y Z

Electrastar (2) tab, Indochine

Partition / Tablature Electrastar (ver 2) de Indochine avec grille d'accords pour débutant. Extrait de l'album Paradize (2002). Tab ajoutée le 04 Nov 2008.

Tablature

Titre : Electrastar (INDOCHINE)
Auteur : Nicola SIRKIS/Olivier GERARDcapo 1ère case
intro :1ère partie :-----------------------------------------------------
-----------------------------------------------------
-----------------------------------------------------
---------2-----3--2-----------------------------2----
---3--3-----3--------3--5--------5-----3--5----------
---------------------------3--3-----3--------3-------2ème partie :----------------------------------------------
---5--5--5--5--5/65--------------------------
------------------------7----7--7--7--5----7--
----------------------------------------------
----------------------------------------------
----------------------------------------------pour les accords, voir l'autre tab de Electrastar...

--Fin de l'extrait.
Vous devez être connecté pour afficher la suite. [ Inscription rapide ]

Plus de Electrastar (2) tabs @911tabs.com

Rappel : Cette représentation est l'interprétation personnelle, approximative et partielle d'une chanson protégée par droits d'auteurs. L'utilisation de cette représentation est strictement réservée à un usage personnel et pédagogique. FranceTabs a pour but de promouvoir la culture française à travers la musique. Si un auteur ou une société acréditée désire s'opposer à la publication de ses représentations, celles-ci seront immédiatement retirées du site.
Envie d'apprendre à jouer de la guitare ?
Des cours de guitare gratuits de professionnels vous attendent tabs4acoustic.com! Au programme, plus de 10h de cours en vidéo, des tutos pour débutant et plein d'autres surprises.