# A B C D E F G H I J K L M N O P Q R S T U V W X Y Z

Paradize tab, Indochine

Partition / Tablature Paradize de Indochine avec grille d'accords pour débutant. Extrait de l'album Paradize (2002). Tab ajoutée le 04 Nov 2008.

Tablature

Intro
Gtr. I
E|-------------------------------------------------------------|
B|-------------------------------------------------------------|
G|---5---3-5---3-5---3-5-3-5-3-----5---3-5---3-5---3-5-3-5-3---|
D|-----5-----5-----5-----------5-----5-----5-----5-----------5-|
A|-3-----------------------------3-----------------------------|
E|-------------------------------------------------------------|
_____Gtr. I
E|-------------------------------------------------------------|
B|-------------------------------------------------------------|
G|---5---3-5---3-5---3-5-3-5-3-----5---3-5---3-5---3-5-3-5-3---|
D|-----5-----5-----5-----------5-----5-----5-----5-----------5-|
A|-3-----------------------------3-----------------------------|
E|-------------------------------------------------------------|E|-------------------------------------------------------------|
B|-------------------------------------------------------------|
G|-------------------------------------------------------------|
D|-10----------------------------10/5--------------------------|
A|-x-----------------------------x--x--------------------------|
E|-8-----------------------------8--3--------------------------|
_____Gtr.

(...)
--Fin de l'extrait.
Vous devez être connecté pour afficher la suite. [ Inscription rapide ]

Plus de Paradize tabs @911tabs.com

Rappel : Cette représentation est l'interprétation personnelle, approximative et partielle d'une chanson protégée par droits d'auteurs. L'utilisation de cette représentation est strictement réservée à un usage personnel et pédagogique. FranceTabs a pour but de promouvoir la culture française à travers la musique. Si un auteur ou une société acréditée désire s'opposer à la publication de ses représentations, celles-ci seront immédiatement retirées du site.
Envie d'apprendre à jouer de la guitare ?
Des cours de guitare gratuits de professionnels vous attendent tabs4acoustic.com! Au programme, plus de 10h de cours en vidéo, des tutos pour débutant et plein d'autres surprises.