Tablature J'aurais voulu - J'aurais voulu...
# A B C D E F G H I J K L M N O P Q R S T U V W X Y Z

J'aurais voulu tab, J'aurais voulu...

Partition / Tablature J'aurais voulu de J'aurais voulu... avec grille d'accords pour débutant. Extrait de l'album Au-dedans de toi (2006). Tab ajoutée le 04 Nov 2008.

Tablature

J'aurais vouluJ'aurais vouluPar YétipunkIntro et AccompagnementE---------------------------------------------------
B---------------------------------------------------
G---------------------------------------------------
D-----87-7-8-7----87-7-8-7-----------------53-3-5-3-
A-5-55--------8-88------------87-7-8-7-3-33---------
E-------------------------5-55----------------------
Couplet et refrainE---------------------------------
B---------------------------------
G-7-7-7-7-----------------5-5-5-5-
D-7-7-7-7-8-8-8-8-7-7-7-7-5-5-5-5-
A-5-5-5-5-8-8-8-8-7-7-7-7-3-3-3-3-
E---------6-6-6-6-5-5-5-5---------

--Fin de l'extrait.
Vous devez être connecté pour afficher la suite. [ Inscription rapide ]
Rappel : Cette représentation est l'interprétation personnelle, approximative et partielle d'une chanson protégée par droits d'auteurs. L'utilisation de cette représentation est strictement réservée à un usage personnel et pédagogique. FranceTabs a pour but de promouvoir la culture française à travers la musique. Si un auteur ou une société acréditée désire s'opposer à la publication de ses représentations, celles-ci seront immédiatement retirées du site.
Envie d'apprendre à jouer de la guitare ?
Des cours de guitare gratuits de professionnels vous attendent tabs4acoustic.com! Au programme, plus de 10h de cours en vidéo, des tutos pour débutant et plein d'autres surprises.