Tablature Lola - La tordue
# A B C D E F G H I J K L M N O P Q R S T U V W X Y Z

Lola tab, La tordue

Partition / Tablature Lola de La tordue avec grille d'accords pour débutant. Extrait de l'album T'es fou (1997). Tab ajoutée le 10 Oct 2007.

Accords

Accord guitare C (x32010) Accord guitare Dm (xx0231) Accord guitare Gm (355333) Accord guitare A7 (x02020) Accord guitare Ebm (x68876) Accord guitare A (x02220)

Tablature

Intro:
2 guitares, 2 fois...
g1 Dm                       A           Dm
E :------------------------|------------------------|
B :------------------------|------------------------|
G :------------------------|------------------------|
D :------------------------|-----------|3|----------| <1ère fois
A :--------------------5---|4---5---7--|5|----------| <2ème fois
E :1-------5---4-----------|------------------------|
g2                                                  |
E :--------5---------------|------------------------|
B :----6-----------6-------|----5-----------6-------|
G :----7-----7-----7-------|----6-----------7-------|
D :--7---7-------7---7---7-|--7---7---7---7---7---7-|
A :5-----------5-----------|--------7---5-----------|
E :--------5-----------5---|5-------------------5---|


Dm A Dm A la foire d'empoigne, j'ai mis ta main dans ma pogne, J'ai tant donné de poigne,

(...)
--Fin de l'extrait.
Vous devez être connecté pour afficher la suite. [ Inscription rapide ]
Rappel : Cette représentation est l'interprétation personnelle, approximative et partielle d'une chanson protégée par droits d'auteurs. L'utilisation de cette représentation est strictement réservée à un usage personnel et pédagogique. FranceTabs a pour but de promouvoir la culture française à travers la musique. Si un auteur ou une société acréditée désire s'opposer à la publication de ses représentations, celles-ci seront immédiatement retirées du site.
Envie d'apprendre à jouer de la guitare ?
Des cours de guitare gratuits de professionnels vous attendent tabs4acoustic.com! Au programme, plus de 10h de cours en vidéo, des tutos pour débutant et plein d'autres surprises.