Tablature Chanson a message - Latraverse, Plume
# A B C D E F G H I J K L M N O P Q R S T U V W X Y Z

Chanson a message tab, Latraverse, Plume

Partition / Tablature Chanson a message de Latraverse, Plume avec grille d'accords pour débutant. Extrait de l'album A deux faces (1976). Tab ajoutée le 04 Nov 2008.

Accords

Accord guitare C (x32010) Accord guitare G (320033) Accord guitare G7 (320001) Accord guitare Am7 (x02010)

Tablature

Chanson à  message (Plume Latraverse)
 Intro:  
      C                             G7                            G                
e|----------------------------------------------------------------------------------
B|----5--------5----5-------3--5----6-------6----6--------5--6----8----------10--8--
G||.-----0-------0-----0--------------0-------0-----0----------------0--------------
D||.--------------------------------------------------------------------------------
A|----3-----3-------3-------2--3----5----5-------5--------3--5----7-----7----8---7--
E|----------------------------------------------------------------------------------    C                  
e|-----------------------
B|--5--------5----5------
G|-----0-------0-----0--.|
D|----------------------.|
A|--3-----3-------3------
E|-----------------------    Em7/B                 Am7                      Em7/B                  

(...)
--Fin de l'extrait.
Vous devez être connecté pour afficher la suite. [ Inscription rapide ]
Rappel : Cette représentation est l'interprétation personnelle, approximative et partielle d'une chanson protégée par droits d'auteurs. L'utilisation de cette représentation est strictement réservée à un usage personnel et pédagogique. FranceTabs a pour but de promouvoir la culture française à travers la musique. Si un auteur ou une société acréditée désire s'opposer à la publication de ses représentations, celles-ci seront immédiatement retirées du site.
Envie d'apprendre à jouer de la guitare ?
Des cours de guitare gratuits de professionnels vous attendent tabs4acoustic.com! Au programme, plus de 10h de cours en vidéo, des tutos pour débutant et plein d'autres surprises.