Tablature Jonquiere (ver 2) - Latraverse, Plume
# A B C D E F G H I J K L M N O P Q R S T U V W X Y Z

Jonquiere (2) tab, Latraverse, Plume

Partition / Tablature Jonquiere (ver 2) de Latraverse, Plume avec grille d'accords pour débutant. Extrait de l'album Pommes de route (1975). Tab ajoutée le 04 Nov 2008.

Accords

Accord guitare C (x32010) Accord guitare CMaj7 (x32000) Accord guitare D (xx0232) Accord guitare E (022100) Accord guitare Em (022000) Accord guitare E7 (020100) Accord guitare F (133211) Accord guitare G (320033) Accord guitare G# (466544) Accord guitare Am (x02210) Accord guitare G/B (7109787)

Tablature

Jonquière
                            Plume Latraverse
--------------------------------------------------------
--------------------------------------------------------
-------------0------0--0-----0---2-----0---0------------
---------------0^2-------0^2-------0^2-----------0------
-----0-0-2-3---------2---------0-------------0^2--------
-3-3-------------------------------------3--------------
Passe:---5-----5------5-----5------5-----5------5-----5---5}--
-----5-----5------5-----5------5-----5------5----5--5}--
-------5------------5------------5------------5-----5}--
-7------------6------------5------------4-----------3}--
--------------------------------------------------------
--------------------------------------------------------
                                                 tiRé vers le bas  C Em Am G            C    Em Am G C   Em    Am       G         C   Em Am G    
Saoul       comme une botte;         Assis au boc pas loin d'la porte
F                         

(...)
--Fin de l'extrait.
Vous devez être connecté pour afficher la suite. [ Inscription rapide ]
Rappel : Cette représentation est l'interprétation personnelle, approximative et partielle d'une chanson protégée par droits d'auteurs. L'utilisation de cette représentation est strictement réservée à un usage personnel et pédagogique. FranceTabs a pour but de promouvoir la culture française à travers la musique. Si un auteur ou une société acréditée désire s'opposer à la publication de ses représentations, celles-ci seront immédiatement retirées du site.
Envie d'apprendre à jouer de la guitare ?
Des cours de guitare gratuits de professionnels vous attendent tabs4acoustic.com! Au programme, plus de 10h de cours en vidéo, des tutos pour débutant et plein d'autres surprises.