Tablature éducation sentimentale - Le forestier, Maxime
# A B C D E F G H I J K L M N O P Q R S T U V W X Y Z

éducation sentimentale tab, Le forestier, Maxime

Partition / Tablature éducation sentimentale de Le forestier, Maxime avec grille d'accords pour débutant. Extrait de l'album Mon frère (1972). Tab ajoutée par grigou, le 06 Sep 2008.

Tablature

Intro
0-1-0---------------------0-1-0—-----
------3-1-0-------0-1---3-------3----
------------2-1-2-----2--------------
-------------------------------------
-------------------------------------
-------------------------------------

3-6-3-1-0-----------0---1-0---------- ----------3-1-0-1-3---1-----3---1-1-- ------------------------------------- ------------------------------------- ------------------------------------- -------------------------------------
---------8-9----8----8-9-11-8--------------- 11-10-11-----11---11----------9---9-11-9-9-- -------------------------------------------- -------------------------------------------- -------------------------------------------- --------------------------------------------
-----------8-------------8-9----11-9-8---9-9 10-9-10-11---10-11-10-11-----11------------- -------------------------------------------- -------------------------------------------- -------------------------------------------- --------------------------------------------
Do Lam Rem7 Sol Ce soir a la brume, nous irons ma brune cueillir des serments Do Lam Rém7 Sol7 Do Mi7 Cette fleur sauvage qui fait des ravages dans les coeurs d'enfants Fa Sol Do Pour toi ma princesse, j'en ferais des tresses et dans tes cheveux Mi Lam Rem Sol7 Do Ces serments, ma belle, te rendront cruelle pour tes amoureux (INTERLUDE: Mi-Lam-Lam7-Fa-Sol-Do) Demain, à l'aurore nous irons encore glaner dans les champs Cueillir des promesses, des fleurs de tendresse et de sentiments Et, sur la colline, dans les sauvagines, tu te coucheras Dans mes bras, ma brune, tu te donnertas (INTERLUDE:

(...)
--Fin de l'extrait.
Vous devez être connecté pour afficher la suite. [ Inscription rapide ]
Rappel : Cette représentation est l'interprétation personnelle, approximative et partielle d'une chanson protégée par droits d'auteurs. L'utilisation de cette représentation est strictement réservée à un usage personnel et pédagogique. FranceTabs a pour but de promouvoir la culture française à travers la musique. Si un auteur ou une société acréditée désire s'opposer à la publication de ses représentations, celles-ci seront immédiatement retirées du site.
Envie d'apprendre à jouer de la guitare ?
Des cours de guitare gratuits de professionnels vous attendent tabs4acoustic.com! Au programme, plus de 10h de cours en vidéo, des tutos pour débutant et plein d'autres surprises.