Tablature Sur la route - Raphael
# A B C D E F G H I J K L M N O P Q R S T U V W X Y Z

Sur la route tab, Raphael

Partition / Tablature Sur la route de Raphael avec grille d'accords pour débutant. Extrait de l'album La réalité (2003). Tab ajoutée le 04 Nov 2008.

Tablature

RAPHAEL - SUR LA ROUTE -LA RéALITE    
By Hyunkel7Intro
----------------------
----------------------
----------------------
-8--7~--8--7~--8--7~--
----------------------
----------------------
1ere Partie--5----6----3----8----
--6----6----3----8----
--7----7----3----9----
--7----8----5----10---
--5----8----5----10---
--5----6----3----8----Sur la mappemonde à  vol d'oiseau
On se dit qu'on peut gagner gros
Qu'on a le ciel dans une goutte d'eau
On cherche tous un bon destin
La vie s'écoule entre nos mains
La joie la peine notre chemin
Traverser la vie sans billet de train
Traverser la vie sans billet de trainSur la route. dala dala lalalala2eme Partie--6----7----4----9----
--7----7----4----9----
--8----8----4----10---
--8----9----6----11---
--6----9----6----11---
--6----7----4----9----La solitude la mauvaiseté
à‡a fait réver la liberté
Jurer qu'on ne s'ennuiera pas
Quand on aura du bien, tu vois
Et ce bonheur qui nous traverse
Pour un simple morceau de pain
Si tu as faim prends le mienBridge--7----9----2---------
--7----9----2---------
--8----10---3----3----
--9----11---4----4----
--9----11---4----4---4
--7----9----2----1----
--7----9----6---------
--7----9----7---------
--8----10---8---------
--9----11---8---------
--9----11---6---------
--7----9----6---------Si c'est pas l'Amérique
à‡a y ressemble bien____3eme Partie--7----8----5----10---
--8----8----5----10---
--9----9----5----11---
--9----10---7----12---
--7----10---7----12---
--7----8----5----10---Des fois j'aimerais étre un oiseau
Pour pouvoir cracher de plus haut
Voir les maisons et les campagnes
Et mieux leur tourner le dos
On ira vendre nos sacs de roses
On prendra le train du matin
Sur tous les murs y'aura écrit
De la justice pas la vengeance
De la justice pas la vengeanceSur la route

--Fin de l'extrait.
Vous devez être connecté pour afficher la suite. [ Inscription rapide ]
Rappel : Cette représentation est l'interprétation personnelle, approximative et partielle d'une chanson protégée par droits d'auteurs. L'utilisation de cette représentation est strictement réservée à un usage personnel et pédagogique. FranceTabs a pour but de promouvoir la culture française à travers la musique. Si un auteur ou une société acréditée désire s'opposer à la publication de ses représentations, celles-ci seront immédiatement retirées du site.
Envie d'apprendre à jouer de la guitare ?
Des cours de guitare gratuits de professionnels vous attendent tabs4acoustic.com! Au programme, plus de 10h de cours en vidéo, des tutos pour débutant et plein d'autres surprises.