# A B C D E F G H I J K L M N O P Q R S T U V W X Y Z

Déserteur (2) tab, Renaud

Partition / Tablature Déserteur (ver 2) de Renaud avec grille d'accords pour débutant. Extrait de l'album Morgane de toi (1983). Tab ajoutée le 04 Nov 2008.

Tablature

Déserteur
Version Live
Renaud
corrections/compliments/insultes : Alexb21@aol.com
// Voilà   c'est pas parfait mais c'est déjà   ça 
// Pour les couplets les arpèges ne sont pas mis au note à   note, je pense
// pas que ce soit vraiment la peine ...
//
// note :
//    Do*  Mim* Do7  Do7*   
// E||--3----3----0----3-||
// B||--1----0----1----1-||
// G||--0----0----0----0-||
// D||--2----2----2----2-||
// A||--3----2----1----1-||
// E||-------0-----------||
//
//
// Intro    Do Lam      (I)    Fa                                                         
E||--------------------|--------------------|-----------1--------|
B||-----------1--------|-----------1--------|--------1-----1-----|
G||--------0-----0-----|--------2-----2-----|-----2-----------2--|
D||-----2--------------|-----2-----------2--|--3-----------------|
A||--3--------------2--|--0-----------------|--------------------|
E||--------------------|--------------------|--------------------|
(III) Sol Dom               (IV)   Lab                                          
--------5--3--------|-----3--------------|-----------4--------|
--------------3-----|--------4--3--------|--------4-----4-----|
-----4-----------4--|--------------5-----|-----5--------------|
--5-----------------|-----------------5--|--6--------------5--|
--------------------|--3-----------------|--------------------|
--------------------|--------------------|--------------------|
(I)  Fam      ()    Sol                                                        
-----------1--------|------------------||
--------1-----1-----|-----------3------||
-----1-----------1--|--------0---------||
--3-----------------|-----0------------||
--------------------|------------------||
--------------------|--3---------------||Do                
Monsieur le président, je vous fais une bafouille,
Mim
Que vous lirez surement, si vous avez des couilles,
Lam
Je viens de recevoir un coup de fil de mes vieux,
Rém V
Pour me prévenir que les gendarmes

(...)
--Fin de l'extrait.
Vous devez être connecté pour afficher la suite. [ Inscription rapide ]

Plus de Déserteur (2) tabs @911tabs.com

Rappel : Cette représentation est l'interprétation personnelle, approximative et partielle d'une chanson protégée par droits d'auteurs. L'utilisation de cette représentation est strictement réservée à un usage personnel et pédagogique. FranceTabs a pour but de promouvoir la culture française à travers la musique. Si un auteur ou une société acréditée désire s'opposer à la publication de ses représentations, celles-ci seront immédiatement retirées du site.
Envie d'apprendre à jouer de la guitare ?
Des cours de guitare gratuits de professionnels vous attendent tabs4acoustic.com! Au programme, plus de 10h de cours en vidéo, des tutos pour débutant et plein d'autres surprises.