Tablature A ton nom - Saez, Damien
# A B C D E F G H I J K L M N O P Q R S T U V W X Y Z

A ton nom tab, Saez, Damien

Partition / Tablature A ton nom de Saez, Damien avec grille d'accords pour débutant. Extrait de l'album God blesse (2002). Tab ajoutée le 04 Nov 2008.

Tablature

tablature déposée par julien H. (adresse:[email protected])
titre: A ton nom
atiste: Saez
H:hammerE--0--------0--0-----------0---------0--0----------------------------------------
B-------1------------0----------1----------3--1--0---------0--0-----3--3------3--
G-----------------------0--------------------------------------------------------
D-----2---2-------0-----------2---2-------------------2---------------------2----
A--0-----------0-----2-----3------------------------2---2--------2--------0-----
E--------------------------------------------------------------------------------E------------------|
B----1--1---1H3--1-|
G------------------|
D------------------|
A-0----------------|
E------------------|
 Pour des renseignements contactez moi sur mon adresse @++++

--Fin de l'extrait.
Vous devez être connecté pour afficher la suite. [ Inscription rapide ]
Rappel : Cette représentation est l'interprétation personnelle, approximative et partielle d'une chanson protégée par droits d'auteurs. L'utilisation de cette représentation est strictement réservée à un usage personnel et pédagogique. FranceTabs a pour but de promouvoir la culture française à travers la musique. Si un auteur ou une société acréditée désire s'opposer à la publication de ses représentations, celles-ci seront immédiatement retirées du site.
Envie d'apprendre à jouer de la guitare ?
Des cours de guitare gratuits de professionnels vous attendent tabs4acoustic.com! Au programme, plus de 10h de cours en vidéo, des tutos pour débutant et plein d'autres surprises.