Tablature Isn't it love - Saez, Damien
# A B C D E F G H I J K L M N O P Q R S T U V W X Y Z

Isn't it love tab, Saez, Damien

Partition / Tablature Isn't it love de Saez, Damien avec grille d'accords pour débutant. Extrait de l'album God blesse (2002). Tab ajoutée le 04 Nov 2008.

Tablature

ISN'T IT LOVESAEZReTranscription : GautierPour les compliments, insultes ou autres : [email protected]
                            The ocean has turned black again and I'm still missing you my darling    
                                                                                                           (
E(------------------------------------------------------------------0---------1-0-------------------
B(-------------------------------------0---------0----------1----------------------1-------------------
G(-------2----0-------2----0------------0--------------2-----2---------2------------------------------------ 
D(----2----2-------2----2--------2---------2-------3----------------3--------------------------------------- 
A(-0-------------0------ ----------------------------------------------------------------------------
E(------------------------------3--------------------------------------------------------------------
      Alone but hopeful I'm still here waiting for a sign you should be giving
E(-----------------------------(--------------------0---------(--------------------------------------
B(-----------------0---------1-0----0--------1--------------1-0----0---------------------------------------
G(-------2------------------------0--------2----2--------2-------2---------------------------------------- 
D(----2----2-------------2-------------3--------------3-------------------------------------------------- 
A(-0----------0--------- ----------------------------------------------------------------------------
E(---------------------3-----------------------------------------------------------------------------
     Isn't it love that we are feeling

(...)
--Fin de l'extrait.
Vous devez être connecté pour afficher la suite. [ Inscription rapide ]
Rappel : Cette représentation est l'interprétation personnelle, approximative et partielle d'une chanson protégée par droits d'auteurs. L'utilisation de cette représentation est strictement réservée à un usage personnel et pédagogique. FranceTabs a pour but de promouvoir la culture française à travers la musique. Si un auteur ou une société acréditée désire s'opposer à la publication de ses représentations, celles-ci seront immédiatement retirées du site.
Envie d'apprendre à jouer de la guitare ?
Des cours de guitare gratuits de professionnels vous attendent tabs4acoustic.com! Au programme, plus de 10h de cours en vidéo, des tutos pour débutant et plein d'autres surprises.