Tablature Jeunesse lève toi (ver 2) - Saez, Damien
# A B C D E F G H I J K L M N O P Q R S T U V W X Y Z

Jeunesse lève toi (2) tab, Saez, Damien

Partition / Tablature Jeunesse lève toi (ver 2) de Saez, Damien avec grille d'accords pour débutant. Extrait de l'album Varsovie, L'Alhambra, Paris (2008). Tab ajoutée le 04 Nov 2008.

Tablature

Saez - Jeunesse lève toi (il le faut bien en ce moment!)Bon bah ma première tab que je met, je me suis inspiRé des accords déjà  mis 
et je me suis attelé aux arpèges, il y a sans doute quelques trucs à  revoir... 
Bonne gratte!
   |---------------------------------------------|
   |----3-------3-------3-------3--------3-------| 
Dm |--------2-------2-------2--------2-------2---|   x 4
   |--0---0---0---0---0---0---0----0---0---0-----|
   |---------------------------------------------|
   |---------------------------------------------|
   |-----------------------------------------------------|
   |----3-------3-------3-------3--------3-------3-------|
Bb |--------3-------3-------3-------3--------3-------3---|
   |--3---3---3---3---3---3---3---3---3----3---3---3-----|
   |-----------------------------------------------------|
   |-----------------------------------------------------|
   |---------------------------------------------|
   |----1-------1-------1-------1-------1--------|
 F |--------2-------2-------2-------2-------2----|
   |--3---3---3---3---3---3---3---3---3---3------|
   |---------------------------------------------|
   |---------------------------------------------|
   |---------------------------------------------|
   |----3-------3-------3-------3--------3-------| 
Dm |--------2-------2-------2--------2-------2---|   x 4
   |--0---0---0---0---0---0---0----0---0---0-----|
   |---------------------------------------------|
   |---------------------------------------------|
   |-----------------------------------------------------|                
   |----3-------3-------3-------3--------3-------3-------|
Bb |--------3-------3-------3-------3--------3-------3---|
   |--3---3---3---3---3---3---3---3---3----3---3---3-----|
   |-----------------------------------------------------|
   |-----------------------------------------------------|
   |---------------------------------------------|
  

(...)
--Fin de l'extrait.
Vous devez être connecté pour afficher la suite. [ Inscription rapide ]
Rappel : Cette représentation est l'interprétation personnelle, approximative et partielle d'une chanson protégée par droits d'auteurs. L'utilisation de cette représentation est strictement réservée à un usage personnel et pédagogique. FranceTabs a pour but de promouvoir la culture française à travers la musique. Si un auteur ou une société acréditée désire s'opposer à la publication de ses représentations, celles-ci seront immédiatement retirées du site.
Envie d'apprendre à jouer de la guitare ?
Des cours de guitare gratuits de professionnels vous attendent tabs4acoustic.com! Au programme, plus de 10h de cours en vidéo, des tutos pour débutant et plein d'autres surprises.